Guitar Chord Chart

akor-akor mayor dasar dalam gitar

 Akor/Kunci adalah nada yang dihasilkan ketika beberapa not dimainkan secara brsama-sama.
Akor mayor biasanya ditulis dengan Huruf dari akornya saja.

Akor/Kunci 'A':

Variasi 1:

E| ----------------------------------------
B|-------------2--------------------------
G|-------------2--------------------------
D|-------------2--------------------------
A|-------------0--------------------------
E|----------------------------------------



Akor/Kunci 'B':

Variasi 1:

E|-----------2------------------------------------

B|----------4------------------------------------

G|----------4------------------------------------

D|-----------------------------------------------

A|-----------------------------------------------
E|---------------------------------------------------------



Akor/Kunci 'C':

Variasi 1:
E| -----------------------------------------------

B|---------1--------------------------------------

G|---------0---------------------------------------

D|---------2--------------------------------------

A|---------3--------------------------------------
E|---------------------------------------------------------


Akor/Kunci ' D ': 


Variasi 1:
E|---------2-------------------------------------

B|---------3---------------------------------------

G|---------2---------------------------------------

D|---------0-------------------------------------

A|-----------------------------------------------
E|---------------------------------------------------------


Akor/Kunci 'E': 


Variasi 1:
E| -----------------------------------------------

B|------------------------------------------------

G|-----------1---------------------------------------

D|-----------2--------------------------------------

A|-----------2--------------------------------------
E|-----------0---------------------------------------------


Akor/Kunci 'F':

Variasi 1:
E|--------1---------------------------------------

B|--------1----------------------------------------

G|--------2----------------------------------------

D|--------3---------------------------------------

A|-----------------------------------------------
E|---------------------------------------------------------

Akor/Kunci 'G':

Variasi 1:
E|---------3------------------------------------
B|---------0------------------------------------
G|---------0------------------------------------
D|---------0------------------------------------
A|---------2------------------------------------
E|---------3------------------------------------











Tidak ada komentar:

Poskan Komentar